El As

Intro

    B    Bb     Ebm
E|-----------------------------------------------------|-
B|-----------------------------------------------------|-
G|--8----10-----8--------------------------------------|-
D|--9----8------8--------------------------------------|-
A|--------------6--------------------------------------|-
e|-----------------------------------------------------|-

Ebm           F#
   Conocí al as,
Ebm                 F#
   tenías un hermoso prendedor
Ebm          F#
   Sin hablar
Ebm             C#
  provocaba estrépito


 Ebm          F#         Ebm   F#
E|------------7----------------6-7-6-----6-------------|-
B|---7------9-----8--------------------9---9--7~~7-----|-
G|-----8--------------9-----------------------6--8-----|-
D|-----------------------------------------------------|-
A|--------9--------------------------------------------|-
e|-----------------------------------------------------|-


Ebm                  F#
   Si te elige, gozarás
Ebm              F#
  del amor sin nombre
Ebm               F#
  Con tierna sinceridad
Ebm                    C# 
  te quita la pelusa moral


Intermedio (X2)

  B          C#   Ebm
E|-----------------------------------------------------|-
B|-11-9~~--7-9-7-------7p6---7p6---7p6---7p6---7p6-----|-
G|---------------6-8-------8-----8-----8-----8-----8---|-
D|-----------------------------------------------------|-
A|-----------------------------------------------------|-
e|-----------------------------------------------------|-


Ebm                 F#
   No temas, tan sólo la muerte te mata,
Ebm                       F#
   dedicate a amarme como un animal
Ebm               F# 
   Es de día, la gente camina,
Ebm                C#   B   C#
   no hay que olvidar


F#                      G#m
   Desnudame rápido que estoy como Napoleón,
F#                     G#m
  en la yugular dame un beso
F#                 G#m 
  Desnudate rápido,   liebre patagónica
F#                    G#m
  en la oscuridad del monte
F#                      G#m
  Desnudate rápido que estoy como Napoleón,
F#                      G#m
  en la yugular dame un beso vampiro,
F#        G#m
         vampírico...

Outro

  F#                  G#m
E|----------------------------7-6-7-9-7----------------|-
B|-----------------------------------------------------|-
G|----------/3-----4/6--4------------------------------|-
D|-----4--6-----6--------------------------------------|-
A|---4-------------------------------------------------|-
e|-----------------------------------------------------|-


  F#                     G#m
E|-----------------------------------7-6-7-9-7---------|-
B|--7-7-7-4-4-4----------------------------------------|-
G|--------------6-6-6-4-4-3-4-3------------------------|-
D|------------------------------4----------------------|-
A|--------------------------------4--------------------|-
e|-----------------------------------------------------|-

  F#                  G#m
E|----------------------------7-6-7-9-7----------------|-
B|-----------------------------------------------------|-
G|----------/3-----4/6--4------------------------------|-
D|-----4--6-----6--------------------------------------|-
A|---4-------------------------------------------------|-
e|-----------------------------------------------------|-


  F#                    G#m
E|-----------------------------------7-6-7-9-7---------|-
B|--7-7-7-4-4-4----------------------------------------|-
G|--------------6-6-6-4-4-3-4-4/6----------------------|-
D|-----------------------------------------------------|-
A|-----------------------------------------------------|-
e|-----------------------------------------------------|-

   F#                    G#m
E|----------------9--11--------------------------------|-
B|--7---------7---7--9------9--7--9----9-7-9--11-9-----|-
G|------6--8-------------------------------------------|-
D|-----------------------------------------------------|-
A|-----------------------------------------------------|-
e|-----------------------------------------------------|-