La Maga

Intro en Am (x14)
E|-----------------------------------------------------|-
B|-----------------------------------------------------|-
G|-----------------------------------------------------|-
D|-----------------------------------------------------|-
A|------------3-----------------3----------------------|-
e|---0--0--0------5------0--0-------5------------------|-

Te invit[chord Am]amos a pasar a que rompas el cristal,
cada [chord G]uno con su m[chord E]ambo pode[chord Am]mos ver en la oscuridad
Es la c[chord Am]umbre de los tiempos, en un transe marginal
todo s[chord G]ube por la l[chord E]iana en su c[chord Am]amino sobrenatural
        
Mira las estr[chord Am]ellas, suéltales tu canto,
[chord G]deja que la noche te cubra[chord E] con su mant[chord Am]o
Afronta tus te[chord Am]mores, mata tu quimera,
[chord G]fluye como el rio que b[chord E]aja por las pie[chord Am]dras

[chord F]Ya lo verás, [chord G]a ella n[chord C]ada la puede mat[chord Am]ar
[chord F]La fantas[chord G]ía aman[chord C]ece cada nuevo día,[chord Am]
acá o all[chord E7]á,
en la vi[chord Am]da

          Am                      G
E|-----------------------------------------------------|-
B|------------------------------10-10-10-8----8--------|-
G|-------7-8---9-7-----------9-------------10---7------|-
D|--7-10-----------7---7--10---------------------------|-
A|-----------------------------------------------------|-
e|-----------------------------------------------------|-
  
          E             Am      
E|-----------------------------------------------------|-
B|-----------------------10----------------------------|-
G|----7-10-10-10-9---7-9----9---------8--9-7-----------|-
D|--9-------------------------10---7---------7---------|-
A|-----------------------------------------------------|-
e|-----------------------------------------------------|-

                            G        E      Am  
E|-----------------------------------------------------|-
B|---------10--10-8-10-8-------------------------------|-
G|-------9---------------10-9---7--------9-7-----------|-
D|--7-10--------------------------10-9-------10--------|-
A|-----------------------------------------------------|-
e|-----------------------------------------------------|-

       Am
Te invitamos a pasar y te saques el disfraz,
         G            E           Am
cuando sientas el contacto, nada volverá a la normalidad

   Am                             G      E       Am  
E|-----------5---------------7-------------------------|-
B|-5---6-5---5-----5---6-7---6----6----5-3----6-8-5----|-
G|-5---7-5---------5---7-5--------4----2-1----4-5------|-
D|------------------------------------------------7----|-
A|-----------------------------------------------------|-
e|-----------------------------------------------------|-

              Am         
Cambia los preceptos, prueba los sabores,
G                       E            Am
que las alegrías se esparzan como flores
              Am
Suelta una plegaria, salte de la senda
 G                         E          Am
Deja que la maga se encargue de las penas


F           G        C               Am
Ya lo verás, a ella nada la puede matar
F        G      C                   Am
La fantasía amanece cada nuevo día,
      E7
es la sal
         Am
de la vida


Outro (x2)
          Am                      G
E|-----------------------------------------------------|-
B|------------------------------10-10-10-8----8--------|-
G|-------7-8---9-7-----------9-------------10---7------|-
D|--7-10-----------7---7--10---------------------------|-
A|-----------------------------------------------------|-
e|-----------------------------------------------------|-
  
          E             Am      
E|-----------------------------------------------------|-
B|-----------------------10----------------------------|-
G|----7-10-10-10-9---7-9----9---------8--9-7-----------|-
D|--9-------------------------10---7---------7---------|-
A|-----------------------------------------------------|-
e|-----------------------------------------------------|-

                            G        E      Am  
E|-----------------------------------------------------|-
B|---------10--10-8-10-8-------------------------------|-
G|-------9---------------10-9---7--------9-7-----------|-
D|--7-10--------------------------10-9-------10--------|-
A|-----------------------------------------------------|-
e|-----------------------------------------------------|-