Despedida
(Tomás Justo Gaggero)

Fm          Bbm
   Pura sinceridad
Eb             G#           Fm
  es lo que pretendo alcanzar
             Bbm
Lo que a mí me pasó
Eb            G#          C#         Eb 
   quiero decirte que mi vida la forjé con vos


Fm          Bbm
   Días enteros sin,
Eb                 G#                Fm                   
   sin hablar con nadie mas que con vos
            Bbm
Hoy debo decirte adiós
Eb           G#           C#            Eb
   Para ser libres fuimos uno y olvidamos los dos


G#                       Fm
Veo es el momento, nos tenemos que alejar
Bbm                      Eb
Veo en el silencio la respuesta a la duda
     G#                        Fm
Y espero que las lágrimas nos puedan liberar
Bbm                    Eb
de toda la pena si volvemos a empezar


     G#                 Fm
Y te vas (y me voy a quebrar)
      Bbm              Eb
Y sé que (voy a sentirme muy solo)
           G#             Fm
Me acostumbré (a tu compañía)
       Bbm            Eb
Y ahora es (duro pensarte lejos)


Fm          Bbm
   Nunca voy a borrar
Eb             G#           Fm
Lo que construimos al girar
         Bbm
Como satélites
Eb              G#              C#        Eb
   Aunque el destino hoy nos quiera ver sueltos brillar
Fm

   Fm    Bbm       Eb        G#          Fm
E|----------------------------------------------------|-
B|-------6----4-2h4-----------------------------------|-
G|-------------------3—---3--5-6-5-3---3--------------|-
D|-----3-----------------------------6---3------------|-
A|----------------------------------------------------|-
e|----------------------------------------------------|-

     Bbm           Eb       G#         C#
E|----------------------------------------------------|-
B|---6------4-----------------------------------------|-
G|-------------6p5-3-----3-5-6-5-3---3----------------|-
D|-3-------------------------------6---3--------------|-
A|----------------------------------------------------|-
e|----------------------------------------------------|-

     Eb      G#       Fm              C#      Eb
E|----------------------------------------------------|-
B|----------------------------------------------------|-
G|---------3-5---------3--5--3------------------------|-
D|-3-5---5----------6----------6-5-6--3----3--5-------|-
A|----------------------------------------------------|-
e|----------------------------------------------------|-

G#                       Fm
Veo es el momento, nos tenemos que alejar
Bbm                      Eb
Veo en el silencio la respuesta a la duda
     G#                        Fm
Y espero que las lágrimas nos puedan liberar
Bbm                    Eb
de toda la pena si volvemos a empezar


     G#                 Fm
Y te vas (y me voy a quebrar)
      Bbm              Eb
Y sé que (voy a sentirme muy solo)
           G#             Fm
Me acostumbré (a tu compañía)
       Bbm            Eb
Y ahora es (duro pensarte lejos)
 

      G#                 Fm
Y me voy (y te vas a quebrar)
      Bbm           Eb
Y sé que (vas a sentirte muy sola)
            G#              Fm
Te acostumbraste (a mi compañía)
       Bbm            Eb
Y ahora es (duro pensarte lejos)

   Cm     Fm    Cm    Fm   Bbm     Eb             G#
E|-----------------------------------------------------|-
B|-----------------------------------------------------|-
G|-------------------------------------8---------------|-
D|-10--10/6-----10--10/6---10-8-----10---10-8---8/10---|-
A|------------------------------8----------------------|-
e|-----------------------------------------------------|-