El Estupor
(TJG)

Fm                G#
No, no quiero saber
         Bbm              Fm
nada de nada de lo que vendrá
             G#            Bbm
Soy la conciencia, el estupor
                     Fm
de lo que nadie me dio


                   C#
Como un pez en la arena
                     Eb
o una hormiga en la sangre,
               Cm
soy la luna radiante,
            Fm
Soy el estupor


          C#
Del movimiento,
          Eb
el movimiento,
              Cm
la música es densa
              Fm
pero está flotando


Fm               G#
Me sorprende un duendo,
      Bbm                Fm
un espejismo, una rebelión,
          G#            Bbm
soy la tormenta eléctrica
              Fm
que me atravesó


               C#
Como una coctelera,
             Eb
un galope gigante,
                  Cm
soy la laguna ambulante,
            Fm
soy el estupor

          C#
Del movimiento
        Eb
en movimiento,
             Cm
la música es densa
           Fm
pero está flotando


(Queda en Fm hasta que retoma con el solo)

   Fm                         Eb           Fm
E|------3-3------------3------------6-6----------3-----|-
B|---6------6------6------6-----8-------8----6------8--|-
G|-5---5---------5---5--------8---8--------5---5-------|-
D|-----------------------------------------------------|-
A|-----------------------------------------------------|-
e|-----------------------------------------------------|-

   Fm                         Eb           Fm
E|------3-3------------3------------6-6----------3-----|-
B|---6------6------6------6-----8-------8----6------8--|-
G|-5---5---------5---5--------8---8--------5---5-------|-
D|-----------------------------------------------------|-
A|-----------------------------------------------------|-
e|-----------------------------------------------------|-

  C#            Eb           Cm            Fm
E|-------4-4----------6-6-----------3-3----------3-----|-
B|---6-------6----8-------8-----4-------4----6------8--|-
G|-6---6--------8---8---------5---5--------5---5-------|-
D|-----------------------------------------------------|-
A|-----------------------------------------------------|-
e|-----------------------------------------------------|-

  C#            Eb           Cm            Fm
E|-------6-6-4--------9-9-8---------3-3------------4---|-
B|---6------------8-------------4-------4----6----6----|-
G|-6---6--------8---8---------5---5--------5-----5-----|-
D|-----------------------------------------------------|-
A|-----------------------------------------------------|-
e|-----------------------------------------------------|-

Fm                 
 Hoy no quiero saber
         Eb                Fm
nada de nada de lo que vendrá
                          Eb
Soy la conciencia, el estupor
                     Fm
de lo que nadie me dio


                   C#
Como un pez en la arena
                     Eb
o una hormiga en la sangre,
               Cm
soy la luna radiante,
            Fm
Soy el estupor


          C#
Del movimiento
        Eb
en movimiento,
             Cm
la música es densa
              Fm
pero está flotando


(Queda en Fm)

C#
  El cuerpo manda lo que-
G#
  El cuerpo manda lo que-
Bbm
  El cuerpo manda lo que-
Fm
  El cuerpo manda lo que-


C#                       G#
  El cuerpo manda lo que dice el sonido
Bbm                        Fm
   Y en el sonido reinan los co-co-colores
C#                  G#
  Un arrecife en mí,  una ola 
Bbm                      Fm 
  que me sacude y es la esfera que gira


C#                G#
  Necesitaría más,  no quiero acabar,
Bbm                     Fm 
   todas las luces, la marea que sube
C#                  G#
  Y la electricidad   me traduce,
Bbm                  Fm
  el piso late y la música flota


C#                       G#
  El cuerpo hace lo que pide el sonido
Bbm                       Fm
  y con el sonido reinan los co-co-colores
C#                  G#
  Un aguacero en mí,  otra ola
Bbm                    Fm
  que me saluda y la tierra que gira


C#                 G#
  Necesitaría mas,   no quiero acabar
Bbm                      Fm
   Todas las luces, la marea que sube
C#                  G#
  y la electricidad   me traduce
Bbm                   Fm
   el piso late y la música flota