En el barrio
(Tomás Justo Gaggero / Marcos Orellana)

Intro
    E       F            G            F          E
E|-----------------------------------------------------|-
B|-----------------------------------------------------|-
G|--4-------5--------4-5-7------9--7--5----7--5--4-----|-
D|--------7------6-7-----------------------------------|-
A|-----------------------------------------------------|-
e|-----------------------------------------------------|-
            F            G            F          E
E|-----------------------------------------------------|-
B|-----------------------------------------------------|-
G|----------5--------4-5-7------9--7--5----4--5--4-----|-
D|--------7------6-7-----------------------------------|-
A|-----------------------------------------------------|-
e|-----------------------------------------------------|-

   E                 F
Tomé un abrigo, me fui a la esquina
          G            F             E
nada del día está dicho y no veo la hora
   F                 G         F
De ir allí, a donde nunca fui,
                 E
se me pasan las horas
     F                     G            F
Llegué al boulevard, el colectivo se fue,
             E
el de la inocencia
   F                 G
De ir allí, a donde nunca fui...


Dm        
  Intentaré reconocer la vía
                              Am
para llegar lo más lejos que pueda,

independientemente del dolor,
                              Dm
intentaré hacer lo mejor que pueda

Con el volumen de la imaginación,
                     Am
el sonido de la fantasía,
                          C
intentaré reformular mis días
       Dm          Am
en el barrio
       Dm          Am
en el barrio


Am-G-F    E

    E       F            G            F          E
E|-----------------------------------------------------|-
B|-----------------------------------------------------|-
G|--4-------5--------4-5-7------9--7--5----7--5--4-----|-
D|--------7------6-7-----------------------------------|-
A|-----------------------------------------------------|-
e|-----------------------------------------------------|-
            F            G            F          E
E|-----------------------------------------------------|-
B|-----------------------------------------------------|-
G|----------5--------4-5-7------9--7--5----4--5--4-----|-
D|--------7------6-7-----------------------------------|-
A|-----------------------------------------------------|-
e|-----------------------------------------------------|-

   E                       F
Crucé la avenida, se iluminó el terraplén,
         G             F                E      
no me importa la ruina  ni la buena fortuna
     F                G         F
Para ir ahí, a donde nunca fui,
       E
se me seca la boca
   F                     G             F
Sonó la campana y la barrera se abrió,
              E
la de la conciencia
   F                 G
De ir allí, a donde nunca fui...


Dm        
  Intentaré reconocer la vía
                              Am
para llegar lo más lejos que pueda,

independientemente del dolor,
                              Dm
intentaré hacer lo mejor que pueda

Con el volumen de la imaginación,
                     Am
el sonido de la fantasía,
                          C
intentaré reformular mis días
       Dm          Am
en el barrio
       Dm                  
en el barrio

E|----------------------------------------9-9----------|-
B|---------10-10-----------10--10----------------------|-
G|--7h9h10---------7h9h10----------7h9h10--------------|-
D|-----------------------------------------------------|-
A|-----------------------------------------------------|-
e|-----------------------------------------------------|-

                                       Am
E|--------8-----------10-----------12--12-----10---10--|-
B|--8 /10-----10 /12--------12 /13-----13---12-----12--|-
G|-----------------------------------------------------|-
D|-----------------------------------------------------|-
A|-----------------------------------------------------|-
e|-----------------------------------------------------|-
                                        Dm
                             En   el   barrio
E|-----------12------10------8-----7-------------------|-
B|-------13------12------10-----8----------------------|-
G|-12/14-----------------------------------------------|-
D|-----------------------------------------------------|-
A|-----------------------------------------------------|-
e|-----------------------------------------------------|-


E|----------------------------------------9-9----------|-
B|---------10-10-----------10--10----------------------|-
G|--7h9h10---------7h9h10----------7h9h10--------------|-
D|-----------------------------------------------------|-
A|-----------------------------------------------------|-
e|-----------------------------------------------------|-

                                     Am
E|--------8-----------10-----------12--12-----10---10--|-
B|--8 /10-----10 /12--------12 /13-----13---12-----12--|-
G|-----------------------------------------------------|-
D|-----------------------------------------------------|-
A|-----------------------------------------------------|-
e|-----------------------------------------------------|-


E|------8---8------------------------------------------|-
B|--10------10--------8-----8-----8--------------------|-
G|-----------------9-----9-----9-----------------------|-
D|-----------------------------------------------------|-
A|-----------------------------------------------------|-
e|-----------------------------------------------------|-

  Dm
Miré al horizonte como quien busca la luz,
    Am
necesito creer que algún día va a encender
      Dm
Regalaría todo para la paz general
       Am
que el batido, el cantor, lleve la voz del dolor
      Dm
Y la armonía cansada te necesita también
         Am
para los hilos cortar, la tiranía del mal
      Dm
Y se enreda el tambor, me encantaría intentar
        Am
hoy lo siento nacer, hoy lo siento nacer


Dm        
  Intentaré reconocer la vía
                              Am
para llegar lo más lejos que pueda,

independientemente del dolor,
                              Dm
intentaré hacer lo mejor que pueda

Con el volumen de la imaginación,
                     Am
el sonido de la fantasía,
                          C     Dm       Am
intentaré reformular mis días