Hasta cuándo
(Marcos Orellana / Nacho Rodriguez)

Intro (continúa en los primeros dos versos)

   C   C/B  Am     F   G   Am   Dm    G
E|------------------------------------------------------|-
B|------------------------------------------------------|-
G|------------------------------------------------------|-
D|------------------------------------------------------|-
A|--3---2---0------3---5---0-----5----------------------|-
e|------------------------------------3-----------------|-

 C        C/B        Am
Luna brillante del cielo,
        F          G        Am
hoy te vi, hoy te vi, uh uh uh
       Dm      
Del menor pensamiento,
   G              Am
quiero desprenderme


C        C/B      Am
En un reflejo dormido
        F          G        Am
hoy te vi, hoy te vi, uh uh uh
Dm
Irradiá,
G      Am   A
vaciamé 


 F                         C
Hasta cuando puedo seguir sin abrirme al mundo,
 G                      Am
sin ir más allá de mi, sin vaciarme
 F                        C
Hasta cuándo puedo vivir escacapandole
      G    E7       Am
al dolor      y al amor

   C     C/B   Am          F       G       Am
                     PM (A partir de aca, muteado)
E|-------------------|------------------------------------|-
B|-------------------|------------------------------------|-
G|-------------------|------------------------------------|-
D|-------------------|------------------------------------|-
A|-3-3-3-------0-0-0-0-0-0----3--3-----5--5-----7-7-------|-
e|-------0-0-0-------------1-1--1---3-3--3---5-5-5--8-7-5-|-
                     
Dm               G
La la la la la, la la la la la...


C        C/B      Am
Luna que llevas adentro
        F          G        Am
hoy te vi, hoy te vi, uh uh uh
       Dm
En tus lagos inciertos
  G            Am
quiero sumergirme 
Dm
Irradiá,
G     Am   A
vaciamé


 F                          C
Hasta cuando puedo seguir sin abrirme al mundo,
 G                       Am
sin ir más allá de mi, sin vaciarme
 F                        C
Hasta cuándo puedo vivir escacapandole
      G    E7       Am
al dolor      y al amor


Dm       G
Ah ah ah ah
C   Em  Am
Ah  ah ah
Dm       G
Ah ah ah ah 
C     Em    Am
Ah ah ah ah ah
Em       F    G   
Ah ah ah ah