Leona
(Tomás Justo Gaggero / Marcos Orellana)

Intro (x4)
Dm  Dm  C  Dm

             Dm    C              Dm   
Estas en la jungla  de mis pensamientos
               C           Dm  
como una leona   dorada y libre
                 C               Dm    
Tu túnica blanca   me esta envolviendo,
                  C            Dm    
la cúpula me mira   y yo te recuerdo

C             Dm   
  Extraño tu cuerpo,
C               Dm 
  extraño tu voz,
C             Dm   
  extraño tus besos,
C              Dm 
  extraño tu olor


               Dm   C                    Dm   
Cerca de la medina    me pareció verte pasar
                        C                Dm
sintiendo el sacrificio,   te evoco mi amor
              C                    Dm
Ay, madre mía   que estás en los cielos,
                      C             Dm
se chocan los planeta   en un sueño vivo


C               Dm
  Extraño tu cuerpo,
C               Dm 
  extraño tu voz,
C             Dm   
  extraño tus besos,
C              Dm 
  extraño tu olor

         Dm         C    Dm                  C        Dm   
E|--------------------------------------------------------|-
B|------------------5---6---------------------------6-----|-
G|--------5--7-5-7----5---7-----------5-7-5-7--8--5---7---|-
D|--5-7-8-----------------------5-7-8---------------------|-
A|--------------------------------------------------------|-
e|--------------------------------------------------------|-

     Dm  C          Dm                C          Dm
E|--------------------------------------------------------|-
B|--------------------------------------------------------|-
G|----7----9-7-5-----7-------------7----9-7-5-------------|-
D|--7-------------8----7--------7--------------8--7-------|-
A|--------------------------------------------------------|-
e|--------------------------------------------------------|-

             Dm    C               Dm   
Estas en la jungla    de mis pensamientos
                C           Dm  
como una leona    dorada y libre
                         C                        Dm  
No es tanta la distancia   si estás en mi imaginación
                       C                       Dm  
una parte de mi cariño   se mimetiza en la oración


F                      
  Aunque a veces no lo pienses igual,
C           Dm
  extraño tu mente
F
 Aunque a veces no lo sientas igual,
C           Dm
  extraño tu corazón


F                      
  Aunque a veces no lo pienses igual,
C           Dm
  extraño tu mente
F
 Aunque a veces no lo sientas igual,
C           Dm
  extraño tu corazón


C               Dm
  Extraño tu cuerpo,
C               Dm 
  extraño tu voz,
C             Dm   
  extraño tus besos,
C              Dm 
  extraño tu olor

    Dm          
E|--17-17-17-13-13-13-15-15-15-13-13-13-12-12-------------|-
B|--------------------------------------------------------|-
G|--------------------------------------------------------|-
D|--------------------------------------------------------|-
A|--------------------------------------------------------|-
e|--------------------------------------------------------|-
    C                       Dm
E|--------------------------------------------------------|-
B|--12-12-12-15-15-15-12-12-15-15-15----------------------|-
G|-----------------------------------14-14-14-12-12-------|-
D|--------------------------------------------------------|-
A|--------------------------------------------------------|-
e|--------------------------------------------------------|-

         Dm         C    Dm                  C        Dm   
E|--------------------------------------------------------|-
B|------------------5---6---------------------------6-----|-
G|--------5--7-5-7----5---7-----------5-7-5-7--8--5---7---|-
D|--5-7-8-----------------------5-7-8---------------------|-
A|--------------------------------------------------------|-
e|--------------------------------------------------------|-

     Dm  C          Dm                C          Dm
E|--------------------------------------------------------|-
B|--------------------------------------------------------|-
G|----7----9-7-5-----7-------------7----9-7-5-------------|-
D|--7-------------8----7--------7--------------8--7-------|-
A|--------------------------------------------------------|-
e|--------------------------------------------------------|-