No es un exceso
(Marcos Orellana)

Intro: Dm	Am	G	

                  Dm      Am
Si crece como un río de frente,
                 G                      
si sale de un lugar que no es el del siempre,
                 Dm         Am
si no llego a tomarme los trenes, 
       G
no me voy a ir.


               Dm        Am
Si no calculo tanto los días,
                  G    
si voy gozando errante a la deriva,
               Dm         Am
si me saco la culpa de encima, 
       G
no me voy a ir.


Dm                 Am
  Te lo digo a vos,
G
  me lo digo a mí,
Dm             Am                    G
   lo que más quiero es que ahora estés feliz.


C   Em   Am
Así yo me quedo tranquilo
C      Em    Am
y vos sos feliz
C   Em   Am
Así yo me quedo tranquilo
C      Em     Am
y vos sos feliz

    Fmaj7   C    Em  Am       Fmaj7 C     B7
E|---5---3-----3----------3-----5-3-------2------------|-
B|----------5----3-5--------3-5-----3--5---------------|-
G|-----------------------------------------------------|-
D|-----------------------------------------------------|-
A|-----------------------------------------------------|-
e|-----------------------------------------------------|-

                  Dm      Am
Si crece como un río de frente,
                 G                      
si sale de un lugar que no es el del siempre,
                 Dm         Am
si no llego a tomarme los trenes, 
       G
no me voy a ir.


Dm       Am              G
Mía luz del día, otra mañana concebida,
  Dm                  Am
la ciencia es flor del tiempo,
         G
Y vos mi águila, mi América


 C               Em
Surge el fuego alrededor del fuego,
      Am      
no es un exceso que quiera más de eso.

C Em Am


 C               Em
Surge el fuego alrededor del fuego,
      Am      
no es un exceso que quiera más de eso.

C Em Am

C               Em
Surge el fuego alrededor del fuego,
(Así yo...)
    Am
no es un exceso que quiera más de eso
(...me quedo tranquilo...          
    C      Em    Am
(...y vos sos feliz)


C               Em
Surge el fuego alrededor del fuego,
(Así yo...)
    Am
no es un exceso que quiera más de eso
(...me quedo tranquilo...          
    C      Em    Am
(...y vos sos feliz)

    Fmaj7   C  Em          Am   Fmaj7 C      B7
E|---5-3--3-------------------------------3--2---------|-
B|----------5--3-5-6-5-3---------5----3----------------|-
G|-----------------------5-4---------------------------|-
D|---------------------------5-------------------------|-
A|-----------------------------------------------------|-
e|-----------------------------------------------------|-