Olviblater
(TJG)

Intro 
  Am               C     G           F        E7
E|------------------------------------------------------|-
B|--------------10-8------------------------------------|-
G|----------7-9------9---7--5-7/9-7---7--5-5/7-7--5-7---|-
D|-7---9-10---------------------------------------------|-
A|------------------------------------------------------|-
e|------------------------------------------------------|-

  Am               C     G           F        E7
E|------------------------------------------------------|-
B|--------------10-8------------------------------------|-
G|----------7-9------9---7-7-5-9-7---7-7-5-9-7--9-10-9--|-
D|-7---9-10---------------------------------------------|-
A|------------------------------------------------------|-
e|------------------------------------------------------|-

Am   G      C    F   E7
Olvidate de mi,
Am       G       C   F  E7
yo me olvido de vos
    G
No puedo seguir invirtiendo 
        Em
tanto tiempo,
       Am            G
pensando en donde estás,
   F           C
mirando el celular


Am      G          C    F  E7
Hoy te voy a congelar
 Am    G           C    F  E7
así, asi de mi te vas
     G
Es cierto que en estos tiempos
        Em
yo me pierdo,
       Am         G
sin saber reaccionar,
    F          C
no sé como llegar

  Am               C     G           F        E7
E|------------------------------------------------------|-
B|--------------10-8------------------------------------|-
G|----------7-9------9---7--5-7/9-7---7--5-5/7-7--5-7---|-
D|-7---9-10-------------------------------------------7-|-
A|------------------------------------------------------|-
e|------------------------------------------------------|-

Am      G          C    F  E7
No te puedo descifrar
  Am   G         C   F  E7
y eso me atormenta
      G 
No creo que todos los sueños
       Em
sean eternos
     Am           G
Al final me da igual,
  F           C
acabo en soledad
 
  F                                C
E|-----------------------------------------------------|-
B|------------5-------5-------5------------------------|-
G|--5-7--5-7-----5-7-----5-7----7--5----7--5-----------|-
D|----------------------------------------------7--5---|-
A|-----------------------------------------------------|-
e|-----------------------------------------------------|-

  F                                C
E|-----------------------------------------------------|-
B|------------5-------5-------5-8--5----8--5-----------|-
G|--5-7--5-7-----5-7-----5-7--------------------7--5---|-
D|-----------------------------------------------------|-
A|-----------------------------------------------------|-
e|-----------------------------------------------------|-

  Dm         Am          G   
E|-----------------------------------------------------|-
B|-----5-6---------------------------------------------|-
G|--7--------5--------5--4------4-----4----------------|-
D|--------------5------------7-----------7--5----------|-
A|-----------------7---------------------------8--7----|-
e|-----------------------------------------------------|-

C    G       C
Olvidate de mi,
Am       G       C
yo me olvido de vos
C   G        C
Olvidate de mi,
Am       G       C
yo me olvido de vos
         Bdis    F
(yo me olvido de vos)
 
                   C     G           F        E7
E|------------------------------------------------------|-
B|--------------10-8------------------------------------|-
G|----------7-9------9---7--5-7/9-7---7--5-5/7-7--5-7---|-
D|-7---9-10-------------------------------------------7-|-
A|------------------------------------------------------|-
e|------------------------------------------------------|-

  Am               C     G           F        E7
E|------------------------------------------------------|-
B|--------------10-8------------------------------------|-
G|----------7-9------9---7--5-7/9-7---7--5-5/7-7--5-7---|-
D|-7---9-10---------------------------------------------|-
A|------------------------------------------------------|-
e|------------------------------------------------------|-