Ritmo al día
(Nacho Rodriguez)

---------------------------------------------------------
Nota: El tema tiene muchos acordes y una manera más fácil
de tocarlo es utilizando un transporte (capo)
en el traste 7 con los siguientes acordes:

Em: X02210 (posición de Am)
G: X32010 (posición de C)
Am: XX0231 (posición de Dm)
B: 022100 (posición de E)
D: 320003 (posición de G)
B7: 020100 (posición de E7)
C5+/F#: X2323X (posición de F invertido)
C: 133211 (posición de F)
D7:353433 (posición de G7)
---------------------------------------------------------

Intro
Em

Em                 G
 Le puso ritmo al día
Am                  B7
  como si no pasara nada
G                      D                        B7
  y el río le lav— la cara y le mostr— con su ondular
                Em
el canto de la tierra
      Cdism      B7     Em 
y la luz que a todo un’a
      Cdism      B7    C
y lo que hay que desatar
   Am              B7
y tambiŽn la libertad


Em                G
  Empez— por la familia
Am                         B7
  despuŽs de olvidar su cumplea–os
G                    D                                B7
  la vida como un espiral entre las piedras y el maizal
                        Em 
le mostr— de vuelta el miedo
        Cdism   B7   Em
ya no quiso competir
       Cdism      B7     C
yo tambiŽn    quiero cantar
        Am           B7
ser guerrero de mi paz


Em                  G
   Buscaba en sus amigos
Am                     B7
   la herida que lo separaba
G                      D                   B7
  la caminata fue muy dura, abismal y no sabes
                    Em 
hasta el amor le ard’a
        Cdism  B7     Em
querer tanto a los dem–as
      Cdism  B7      C
quŽ dif’cil   es soltar
      Am           D7
y aceptar la soledad

  G              Am                C                 D  D7
E|--------------------------------------------------------|-
B|-12-12-12-13-10----10-10-10-12-------12-12-12-13-10-----|-
G|-------------------------------12-----------------------|-
D|--------------------------------------------------------|-
A|--------------------------------------------------------|-
e|--------------------------------------------------------|-

  G              Am                C                 D  D7
E|--------------------------------------------------------|-
B|-12-12-12-13-10----10-10-10----13----12-12-12-13-10-----|-
G|----------------------------12--------------------------|-
D|--------------------------------------------------------|-
A|--------------------------------------------------------|-
e|--------------------------------------------------------|-

G              Am
  Si lo pienso    no lo canto,
C              D
  si lo canto siento renacer
G              Am
  Si lo pienso    no lo canto,
C              D
  si lo canto siento renacer
G              Am
  Si lo pienso    no lo canto,
C              D
  si lo canto siento renacer
G              Am
  Si lo pienso    no lo canto,
C              D
  si lo canto siento renacer

  G              Am                C                  D        
				    si lo canto     siento renacer
E|--------------------------------------------------------|-
B|-12-12-12-13-10----10-10-10-12-------12-12-12-13-10-----|-
G|-------------------------------12-----------------------|-
D|--------------------------------------------------------|-
A|--------------------------------------------------------|-
e|--------------------------------------------------------|-

  G              Am                c                  D          G
				    si lo canto     siento renacer
E|--------------------------------------------------------|-
B|-12-12-12-13-10----10-10-10----13----12-12-12-13-10-----|-
G|----------------------------12--------------------------|-
D|--------------------------------------------------------|-
A|--------------------------------------------------------|-
e|--------------------------------------------------------|-